0
SECTION
2
HEADER
9
$INSUNITS
70
4
9
$ACADVER
1
AC1014
9
$HANDSEED
5
FFFF
0
ENDSEC
0
SECTION
2
TABLES
0
TABLE
2
VPORT
5
8
100
AcDbSymbolTable
0
ENDTAB
0
TABLE
2
LTYPE
5
5
100
AcDbSymbolTable
0
LTYPE
5
14
100
AcDbSymbolTableRecord
100
AcDbLinetypeTableRecord
2
BYBLOCK
70
0
0
LTYPE
5
15
100
AcDbSymbolTableRecord
100
AcDbLinetypeTableRecord
2
BYLAYER
70
0
0
ENDTAB
0
TABLE
2
LAYER
5
2
100
AcDbSymbolTable
70
2
0
LAYER
5
50
100
AcDbSymbolTableRecord
100
AcDbLayerTableRecord
2
0
70
0
6
CONTINUOUS
0
ENDTAB
0
TABLE
2
STYLE
5
3
100
AcDbSymbolTable
70
1
0
STYLE
5
11
100
AcDbSymbolTableRecord
100
AcDbTextStyleTableRecord
2
STANDARD
70
0
0
ENDTAB
0
TABLE
2
VIEW
5
6
100
AcDbSymbolTable
70
0
0
ENDTAB
0
TABLE
2
UCS
5
7
100
AcDbSymbolTable
70
0
0
ENDTAB
0
TABLE
2
APPID
5
9
100
AcDbSymbolTable
70
2
0
APPID
5
12
100
AcDbSymbolTableRecord
100
AcDbRegAppTableRecord
2
ACAD
70
0
0
ENDTAB
0
TABLE
2
DIMSTYLE
5
A
100
AcDbSymbolTable
70
1
0
ENDTAB
0
TABLE
2
BLOCK_RECORD
5
1
100
AcDbSymbolTable
70
1
0
BLOCK_RECORD
5
1F
100
AcDbSymbolTableRecord
100
AcDbBlockTableRecord
2
*MODEL_SPACE
0
BLOCK_RECORD
5
1B
100
AcDbSymbolTableRecord
100
AcDbBlockTableRecord
2
*PAPER_SPACE
0
ENDTAB
0
ENDSEC
0
SECTION
2
BLOCKS
0
BLOCK
5
20
100
AcDbEntity
100
AcDbBlockBegin
2
*MODEL_SPACE
0
ENDBLK
5
21
100
AcDbEntity
100
AcDbBlockEnd
0
BLOCK
5
1C
100
AcDbEntity
100
AcDbBlockBegin
2
*PAPER_SPACE
0
ENDBLK
5
1D
100
AcDbEntity
100
AcDbBlockEnd
0
ENDSEC
0
SECTION
2
ENTITIES
0
LWPOLYLINE
5
100
100
AcDbEntity
8
0
100
AcDbPolyline
90
4
70
1
43
0.0
10
600
20
0
10
0
20
0
10
0
20
400
10
600
20
400
0
LINE
5
101
100
AcDbEntity
8
0
100
AcDbLine
10
253.71858065508269
20
245.3741646663033
30
0
11
259.69834620607122
21
227.15639775508413
31
0
0
LINE
5
102
100
AcDbEntity
8
0
100
AcDbLine
10
271.46733322451263
20
247.94195785912729
30
0
11
277.22360532942764
21
230.40507909846102
31
0
0
LINE
5
103
100
AcDbEntity
8
0
100
AcDbLine
10
329.14431448296392
20
247.94195785912729
30
0
11
324.64187535770947
21
230.88832369861541
31
0
0
LINE
5
104
100
AcDbEntity
8
0
100
AcDbLine
10
345.89153793259766
20
243.41010368609616
30
0
11
341.84991591044934
21
228.10188041791554
31
0
0
SPLINE
5
105
100
AcDbEntity
8
0
100
AcDbSpline
70
12
71
2
41
1
41
2.9999999999999858
41
1
72
6
73
3
74
0
42
0.000000001
43
0.0000000001
44
0.0000000001
40
0
40
0
40
0
40
5.8152779046465914
40
5.8152779046465914
40
5.8152779046465914
10
207.75839874954494
20
203.08910258538043
30
0
10
186.71272609057993
20
226.3845022443634
30
0
10
159.74403127819039
20
233.3088968583553
30
0
0
SPLINE
5
106
100
AcDbEntity
8
0
100
AcDbSpline
70
12
71
2
41
1
41
2.9999999999999964
41
1
72
6
73
3
74
0
42
0.000000001
43
0.0000000001
44
0.0000000001
40
0
40
0
40
0
40
5.9194919502137813
40
5.9194919502137813
40
5.9194919502137813
10
197.6230370504951
20
193.33796276988073
30
0
10
148.81077662451898
20
205.9757602241767
30
0
10
150
20
220
30
0
0
SPLINE
5
107
100
AcDbEntity
8
0
100
AcDbSpline
70
12
71
2
41
1
41
3.0000000000000018
41
1
72
6
73
3
74
0
42
0.000000001
43
0.0000000001
44
0.0000000001
40
0
40
0
40
0
40
4.2700710514029634
40
4.2700710514029634
40
4.2700710514029634
10
159.74403127819039
20
233.3088968583553
30
0
10
159.74403127819039
20
256.63317345285435
30
0
10
137.51308014905848
20
263.19312624505721
30
0
0
SPLINE
5
108
100
AcDbEntity
8
0
100
AcDbSpline
70
12
71
2
41
1
41
2.9999999999999947
41
1
72
6
73
3
74
0
42
0.000000001
43
0.0000000001
44
0.0000000001
40
0
40
0
40
0
40
5.1418813807557564
40
5.1418813807557564
40
5.1418813807557564
10
150
20
220
30
0
10
130
20
229.99999999999997
30
0
10
126.94426731717607
20
261.73535895790104
30
0
0
SPLINE
5
109
100
AcDbEntity
8
0
100
AcDbSpline
70
12
71
2
41
1
41
3
41
1
72
6
73
3
74
0
42
0.000000001
43
0.0000000001
44
0.0000000001
40
0
40
0
40
0
40
3.0263452548007099
40
3.0263452548007099
40
3.0263452548007099
10
126.94426731717607
20
261.73535895790104
30
0
10
120
20
270
30
0
10
121.28380092253111
20
290.34635154619127
30
0
0
SPLINE
5
110
100
AcDbEntity
8
0
100
AcDbSpline
70
12
71
2
41
1
41
2.9999999999999893
41
1
72
6
73
3
74
0
42
0.000000001
43
0.0000000001
44
0.0000000001
40
0
40
0
40
0
40
2.8306439093647522
40
2.8306439093647522
40
2.8306439093647522
10
137.51308014905848
20
263.19312624505721
30
0
10
144.43747476305037
20
274.85526454230677
30
0
10
140
20
290
30
0
0
ARC
5
111
100
AcDbEntity
8
0
100
AcDbCircle
10
128.67122142128824
20
336.56234775900646
30
0
40
46.80269530239211
100
AcDbArc
50
124.55364742887598
51
260.91835274097889
0
ARC
5
112
100
AcDbEntity
8
0
100
AcDbCircle
10
128.67122142128824
20
336.56234775900646
30
0
40
47.920699628825638
100
AcDbArc
50
-76.325437497943
51
55.874551819987914
0
LINE
5
113
100
AcDbEntity
8
0
100
AcDbLine
10
102.12577925334166
20
375.10883641461243
30
0
11
120.36902367447853
21
348.61792284565627
31
0
0
LINE
5
114
100
AcDbEntity
8
0
100
AcDbLine
10
155.5550562276959
20
376.23164166522452
30
0
11
136.88309097589132
21
348.67963196443645
31
0
0
ARC
5
115
100
AcDbEntity
8
0
100
AcDbCircle
10
128.6049785498457
20
354.28969922443883
30
0
40
10.000000000000028
100
AcDbArc
50
214.55364742887588
51
325.87455181998735
0
SPLINE
5
116
100
AcDbEntity
8
0
100
AcDbSpline
70
12
71
2
41
1
41
2.999999999999968
41
1
72
6
73
3
74
0
42
0.000000001
43
0.0000000001
44
0.0000000001
40
0
40
0
40
0
40
5.1824378851732265
40
5.1824378851732265
40
5.1824378851732265
10
396.62350974747631
20
204.17923421501331
30
0
10
413.79902599072886
20
223.50065795717256
30
0
10
440
20
230
30
0
0
SPLINE
5
117
100
AcDbEntity
8
0
100
AcDbSpline
70
12
71
2
41
1
41
3.0000000000000391
41
1
72
6
73
3
74
0
42
0.000000001
43
0.0000000001
44
0.0000000001
40
0
40
0
40
0
40
4.5333414148695486
40
4.5333414148695486
40
4.5333414148695486
10
440
20
230
30
0
10
439.99999999999994
20
253.91592691179042
30
0
10
463.53210090300945
20
262.54728702053336
30
0
0
SPLINE
5
118
100
AcDbEntity
8
0
100
AcDbSpline
70
12
71
2
41
1
41
3.0000000000000693
41
1
72
6
73
3
74
0
42
0.000000001
43
0.0000000001
44
0.0000000001
40
0
40
0
40
0
40
2.9426903960411854
40
2.9426903960411854
40
2.9426903960411854
10
463.53210090300945
20
262.54728702053336
30
0
10
455.31175794230194
20
276.52187005373617
30
0
10
463.53210090300945
20
289.26340164283283
30
0
0
SPLINE
5
119
100
AcDbEntity
8
0
100
AcDbSpline
70
12
71
2
41
1
41
2.9999999999999787
41
1
72
6
73
3
74
0
42
0.000000001
43
0.0000000001
44
0.0000000001
40
0
40
0
40
0
40
5.7552313868861571
40
5.7552313868861571
40
5.7552313868861571
10
407.44770232620704
20
194.11221691567869
30
0
10
450.74548338845489
20
204.17923421501331
30
0
10
455
20
220
30
0
0
SPLINE
5
120
100
AcDbEntity
8
0
100
AcDbSpline
70
12
71
2
41
1
41
3
41
1
72
6
73
3
74
0
42
0.000000001
43
0.0000000001
44
0.0000000001
40
0
40
0
40
0
40
4.7762432936356998
40
4.7762432936356998
40
4.7762432936356998
10
455
20
220
30
0
10
475
20
235
30
0
10
475
20
260
30
0
0
SPLINE
5
121
100
AcDbEntity
8
0
100
AcDbSpline
70
12
71
2
41
1
41
3.0000000000000018
41
1
72
6
73
3
74
0
42
0.000000001
43
0.0000000001
44
0.0000000001
40
0
40
0
40
0
40
3.2377725867190925
40
3.2377725867190925
40
3.2377725867190925
10
475
20
260
30
0
10
485
20
274.99999999999994
30
0
10
477.42684459660973
20
289.50159016119574
30
0
0
ARC
5
122
100
AcDbEntity
8
0
100
AcDbCircle
10
471.60563181266366
20
336.80061020813389
30
0
40
48.217923011369173
100
AcDbArc
50
128.81712136604614
51
260.36108568512071
0
ARC
5
123
100
AcDbEntity
8
0
100
AcDbCircle
10
471.60563181266366
20
336.80061020813389
30
0
40
47.655889622130005
100
AcDbArc
50
-82.983742958251511
51
57.104348009078073
0
LINE
5
124
100
AcDbEntity
8
0
100
AcDbLine
10
441.38086959331025
20
374.36963798786053
30
0
11
462.93233098831502
21
347.58142222071729
31
0
0
LINE
5
125
100
AcDbEntity
8
0
100
AcDbLine
10
479.1204486661764
20
348.41868158416156
30
0
11
497.48805691381722
21
376.81540605366854
31
0
0
ARC
5
126
100
AcDbEntity
8
0
100
AcDbCircle
10
470.72383784581035
20
353.84978890507796
30
0
40
10.000000000000011
100
AcDbArc
50
218.81712136604622
51
327.10434800907825
0
SPLINE
5
127
100
AcDbEntity
8
0
100
AcDbSpline
70
12
71
2
41
1
41
3.0000000000000107
41
1
72
6
73
3
74
0
42
0.000000001
43
0.0000000001
44
0.0000000001
40
0
40
0
40
0
40
7.6718399075546255
40
7.6718399075546255
40
7.6718399075546255
10
183.74506094127509
20
163.7176495017151
30
0
10
140
20
180
30
0
10
110.72925484422591
20
165.01381151930019
30
0
0
SPLINE
5
128
100
AcDbEntity
8
0
100
AcDbSpline
70
12
71
2
41
1
41
2.9999999999999769
41
1
72
6
73
3
74
0
42
0.000000001
43
0.0000000001
44
0.0000000001
40
0
40
0
40
0
40
7.0304460940296201
40
7.0304460940296201
40
7.0304460940296201
10
185.28432423286134
20
147.47822796125101
30
0
10
130
20
150
30
0
10
116.34595692042797
20
157.66889341965134
30
0
0
SPLINE
5
129
100
AcDbEntity
8
0
100
AcDbSpline
70
12
71
2
41
1
41
3.0000000000000089
41
1
72
6
73
3
74
0
42
0.000000001
43
0.0000000001
44
0.0000000001
40
0
40
0
40
0
40
3.6570707795125874
40
3.6570707795125874
40
3.6570707795125874
10
116.34595692042797
20
157.66889341965134
30
0
10
100
20
140.00000000000003
30
0
10
86.10217651010916
20
140.3867331851834
30
0
0
SPLINE
5
130
100
AcDbEntity
8
0
100
AcDbSpline
70
12
71
2
41
1
41
3.0000000000000124
41
1
72
6
73
3
74
0
42
0.000000001
43
0.0000000001
44
0.0000000001
40
0
40
0
40
0
40
4.2267854067178741
40
4.2267854067178741
40
4.2267854067178741
10
110.72925484422591
20
165.01381151930019
30
0
10
80
20
160
30
0
10
77.893150398736879
20
145.57138125552382
30
0
0
SPLINE
5
131
100
AcDbEntity
8
0
100
AcDbSpline
70
12
71
2
41
1
41
2.9999999999999645
41
1
72
6
73
3
74
0
42
0.000000001
43
0.0000000001
44
0.0000000001
40
0
40
0
40
0
40
3.381915259551608
40
3.381915259551608
40
3.381915259551608
10
86.10217651010916
20
140.3867331851834
30
0
10
80
20
130
30
0
10
60
20
120
30
0
0
SPLINE
5
132
100
AcDbEntity
8
0
100
AcDbSpline
70
12
71
2
41
1
41
3.0000000000000053
41
1
72
6
73
3
74
0
42
0.000000001
43
0.0000000001
44
0.0000000001
40
0
40
0
40
0
40
3.5639904467553492
40
3.5639904467553492
40
3.5639904467553492
10
77.893150398736879
20
145.57138125552382
30
0
10
60
20
139.99999999999997
30
0
10
60
20
120
30
0
0
SPLINE
5
133
100
AcDbEntity
8
0
100
AcDbSpline
70
12
71
2
41
1
41
3.0000000000000036
41
1
72
6
73
3
74
0
42
0.000000001
43
0.0000000001
44
0.0000000001
40
0
40
0
40
0
40
10.872898316323948
40
10.872898316323948
40
10.872898316323948
10
190.65314521842942
20
134.68697156417295
30
0
10
120
20
140
30
0
10
95.183456657645536
20
103.35736194439153
30
0
0
SPLINE
5
134
100
AcDbEntity
8
0
100
AcDbSpline
70
12
71
2
41
1
41
2.9999999999999645
41
1
72
6
73
3
74
0
42
0.000000001
43
0.0000000001
44
0.0000000001
40
0
40
0
40
0
40
9.6377450172557424
40
9.6377450172557424
40
9.6377450172557424
10
198.4749483252713
20
124.02997909537831
30
0
10
147.88280496942056
20
105.8431802609847
30
0
10
106.12105725065544
20
96.894234321249328
30
0
0
SPLINE
5
135
100
AcDbEntity
8
0
100
AcDbSpline
70
12
71
2
41
1
41
3.0000000000000053
41
1
72
6
73
3
74
0
42
0.000000001
43
0.0000000001
44
0.0000000001
40
0
40
0
40
0
40
4.7944842014073883
40
4.7944842014073883
40
4.7944842014073883
10
106.12105725065544
20
96.894234321249328
30
0
10
95.183456657645536
20
65.572923532175508
30
0
10
82.754365074679725
20
56.126813929121482
30
0
0
SPLINE
5
136
100
AcDbEntity
8
0
100
AcDbSpline
70
12
71
2
41
1
41
3
41
1
72
6
73
3
74
0
42
0.000000001
43
0.0000000001
44
0.0000000001
40
0
40
0
40
0
40
4.1307797655933047
40
4.1307797655933047
40
4.1307797655933047
10
95.183456657645536
20
103.35736194439153
30
0
10
74.799746461581648
20
94.408416004656161
30
0
10
64.359309531890318
20
77.50485145182266
30
0
0
SPLINE
5
137
100
AcDbEntity
8
0
100
AcDbSpline
70
12
71
2
41
1
41
3
41
1
72
6
73
3
74
0
42
0.000000001
43
0.0000000001
44
0.0000000001
40
0
40
0
40
0
40
2.0922422099949789
40
2.0922422099949789
40
2.0922422099949789
10
64.359309531890318
20
77.50485145182266
30
0
10
60
20
70
30
0
10
70
20
60
30
0
0
SPLINE
5
138
100
AcDbEntity
8
0
100
AcDbSpline
70
12
71
2
41
1
41
2.9999999999999982
41
1
72
6
73
3
74
0
42
0.000000001
43
0.0000000001
44
0.0000000001
40
0
40
0
40
0
40
4.3189130513144498
40
4.3189130513144498
40
4.3189130513144498
10
70
20
60
30
0
10
50
20
50
30
0
10
61.794913691486286
20
26.296994130003544
30
0
0
SPLINE
5
139
100
AcDbEntity
8
0
100
AcDbSpline
70
12
71
2
41
1
41
3.000000000000016
41
1
72
6
73
3
74
0
42
0.000000001
43
0.0000000001
44
0.0000000001
40
0
40
0
40
0
40
3.0991828573011055
40
3.0991828573011055
40
3.0991828573011055
10
82.754365074679725
20
56.126813929121482
30
0
10
75.794073788218867
20
41.709067692881156
30
0
10
78.279892104812035
20
26.296994130003544
30
0
0
SPLINE
5
140
100
AcDbEntity
8
0
100
AcDbSpline
70
12
71
2
41
1
41
3
41
1
72
6
73
3
74
0
42
0.000000001
43
0.0000000001
44
0.0000000001
40
0
40
0
40
0
40
1.8999278807064022
40
1.8999278807064022
40
1.8999278807064022
10
78.279892104812035
20
26.296994130003544
30
0
10
70
20
20
30
0
10
61.794913691486286
20
26.296994130003544
30
0
0
SPLINE
5
141
100
AcDbEntity
8
0
100
AcDbSpline
70
12
71
2
41
1
41
2.9999999999999964
41
1
72
6
73
3
74
0
42
0.000000001
43
0.0000000001
44
0.0000000001
40
0
40
0
40
0
40
6.5201583551509383
40
6.5201583551509383
40
6.5201583551509383
10
213.15499728669374
20
111.17575779378497
30
0
10
172.95551072621205
20
106.99791187281697
30
0
10
157.54580800957092
20
84.29295694197927
30
0
0
SPLINE
5
142
100
AcDbEntity
8
0
100
AcDbSpline
70
12
71
2
41
1
41
3.0000000000000462
41
1
72
6
73
3
74
0
42
0.000000001
43
0.0000000001
44
0.0000000001
40
0
40
0
40
0
40
6.8951769121598163
40
6.8951769121598163
40
6.8951769121598163
10
230.20379102850964
20
101.3630788752582
30
0
10
196.07006480117377
20
84.29295694197927
30
0
10
165.8927303144182
20
77.230176530185432
30
0
0
SPLINE
5
143
100
AcDbEntity
8
0
100
AcDbSpline
70
12
71
2
41
1
41
2.9999999999999556
41
1
72
6
73
3
74
0
42
0.000000001
43
0.0000000001
44
0.0000000001
40
0
40
0
40
0
40
3.1705458127785513
40
3.1705458127785513
40
3.1705458127785513
10
165.8927303144182
20
77.230176530185432
30
0
10
157.54580800957095
20
58.610119080910721
30
0
10
150
20
50
30
0
0
SPLINE
5
144
100
AcDbEntity
8
0
100
AcDbSpline
70
12
71
2
41
1
41
2.9999999999999787
41
1
72
6
73
3
74
0
42
0.000000001
43
0.0000000001
44
0.0000000001
40
0
40
0
40
0
40
2.9345272597395669
40
2.9345272597395669
40
2.9345272597395669
10
150
20
50
30
0
10
142.77817623945651
20
35.495565005949004
30
0
10
142.77817623945651
20
22.012075128888004
30
0
0
SPLINE
5
145
100
AcDbEntity
8
0
100
AcDbSpline
70
12
71
2
41
1
41
2.9999999999999964
41
1
72
6
73
3
74
0
42
0.000000001
43
0.0000000001
44
0.0000000001
40
0
40
0
40
0
40
4.2568989951219232
40
4.2568989951219232
40
4.2568989951219232
10
157.54580800957092
20
84.29295694197927
30
0
10
133.14711204155577
20
64.388757599651157
30
0
10
139.56782150682295
20
50.905267722590153
30
0
0
SPLINE
5
146
100
AcDbEntity
8
0
100
AcDbSpline
70
12
71
2
41
1
41
3.0000000000000071
41
1
72
6
73
3
74
0
42
0.000000001
43
0.0000000001
44
0.0000000001
40
0
40
0
40
0
40
4.1323030613039551
40
4.1323030613039551
40
4.1323030613039551
10
139.56782150682295
20
50.905267722590153
30
0
10
121.58983500407494
20
35.623183145572746
30
0
10
142.77817623945651
20
22.012075128888004
30
0
0
SPLINE
5
147
100
AcDbEntity
8
0
100
AcDbSpline
70
12
71
2
41
1
41
3
41
1
72
6
73
3
74
0
42
0.000000001
43
0.0000000001
44
0.0000000001
40
0
40
0
40
0
40
6.5854443155360807
40
6.5854443155360807
40
6.5854443155360807
10
422.00583592655653
20
164.60082258811309
30
0
10
460
20
180
30
0
10
485
20
170
30
0
0
SPLINE
5
148
100
AcDbEntity
8
0
100
AcDbSpline
70
12
71
2
41
1
41
3
41
1
72
6
73
3
74
0
42
0.000000001
43
0.0000000001
44
0.0000000001
40
0
40
0
40
0
40
4.7762432936356998
40
4.7762432936356998
40
4.7762432936356998
10
485
20
170
30
0
10
510
20
170
30
0
10
525
20
150
30
0
0
SPLINE
5
149
100
AcDbEntity
8
0
100
AcDbSpline
70
12
71
2
41
1
41
2.9999999999999574
41
1
72
6
73
3
74
0
42
0.000000001
43
0.0000000001
44
0.0000000001
40
0
40
0
40
0
40
3.4857095671817975
40
3.4857095671817975
40
3.4857095671817975
10
525
20
150
30
0
10
546.10688827356535
20
132.86277812528829
30
0
10
535
20
125
30
0
0
SPLINE
5
150
100
AcDbEntity
8
0
100
AcDbSpline
70
12
71
2
41
1
41
3.000000000000032
41
1
72
6
73
3
74
0
42
0.000000001
43
0.0000000001
44
0.0000000001
40
0
40
0
40
0
40
6.4556337520534584
40
6.4556337520534584
40
6.4556337520534584
10
421.21690779189186
20
150.78559836790151
30
0
10
457.69376441283907
20
153.51769595030126
30
0
10
485
20
160
30
0
0
SPLINE
5
151
100
AcDbEntity
8
0
100
AcDbSpline
70
12
71
2
41
1
41
3.0000000000000604
41
1
72
6
73
3
74
0
42
0.000000001
43
0.0000000001
44
0.0000000001
40
0
40
0
40
0
40
3.6623026994550569
40
3.6623026994550569
40
3.6623026994550569
10
485
20
160
30
0
10
495.72903991987516
20
147.72424338962691
30
0
10
515
20
140
30
0
0
SPLINE
5
152
100
AcDbEntity
8
0
100
AcDbSpline
70
12
71
2
41
1
41
2.9999999999999858
41
1
72
6
73
3
74
0
42
0.000000001
43
0.0000000001
44
0.0000000001
40
0
40
0
40
0
40
2.5682948772939596
40
2.5682948772939596
40
2.5682948772939596
10
515
20
140
30
0
10
522.68118878909934
20
129.33632874052998
30
0
10
535
20
125
30
0
0
SPLINE
5
153
100
AcDbEntity
8
0
100
AcDbSpline
70
12
71
2
41
1
41
2.9999999999999947
41
1
72
6
73
3
74
0
42
0.000000001
43
0.0000000001
44
0.0000000001
40
0
40
0
40
0
40
9.8645460193885626
40
9.8645460193885626
40
9.8645460193885626
10
417.80275406047389
20
139.96083545556323
30
0
10
478.15900963880063
20
136.19250201222545
30
0
10
504.98017610230522
20
104.3423668368137
30
0
0
SPLINE
5
154
100
AcDbEntity
8
0
100
AcDbSpline
70
12
71
2
41
1
41
3.000000000000032
41
1
72
6
73
3
74
0
42
0.000000001
43
0.0000000001
44
0.0000000001
40
0
40
0
40
0
40
5.7050415136634447
40
5.7050415136634447
40
5.7050415136634447
10
504.98017610230522
20
104.3423668368137
30
0
10
540
20
80
30
0
10
532.47187172739746
20
61.76376507600007
30
0
0
SPLINE
5
155
100
AcDbEntity
8
0
100
AcDbSpline
70
12
71
2
41
1
41
3.0000000000000302
41
1
72
6
73
3
74
0
42
0.000000001
43
0.0000000001
44
0.0000000001
40
0
40
0
40
0
40
4.6157060202829134
40
4.6157060202829134
40
4.6157060202829134
10
532.47187172739746
20
61.76376507600007
30
0
10
551.24668825185074
20
45.000536036309661
30
0
10
532.47187172739746
20
25.219925769474987
30
0
0
SPLINE
5
156
100
AcDbEntity
8
0
100
AcDbSpline
70
12
71
2
41
1
41
2.9999999999999911
41
1
72
6
73
3
74
0
42
0.000000001
43
0.0000000001
44
0.0000000001
40
0
40
0
40
0
40
9.0230104385194636
40
9.0230104385194636
40
9.0230104385194636
10
409.22922989979355
20
126.29984349552754
30
0
10
444.29728697862595
20
107.35974806395797
30
0
10
494.58697409769712
20
99.31339812490657
30
0
0
SPLINE
5
157
100
AcDbEntity
8
0
100
AcDbSpline
70
12
71
2
41
1
41
3
41
1
72
6
73
3
74
0
42
0.000000001
43
0.0000000001
44
0.0000000001
40
0
40
0
40
0
40
4.891511498459117
40
4.891511498459117
40
4.891511498459117
10
494.58697409769712
20
99.31339812490657
30
0
10
503.30385319833601
20
68.804321272670038
30
0
10
520
20
60
30
0
0
SPLINE
5
158
100
AcDbEntity
8
0
100
AcDbSpline
70
12
71
2
41
1
41
3.0000000000000533
41
1
72
6
73
3
74
0
42
0.000000001
43
0.0000000001
44
0.0000000001
40
0
40
0
40
0
40
4.0384091523393106
40
4.0384091523393106
40
4.0384091523393106
10
520
20
60
30
0
10
520.00000000000011
20
30
30
0
10
532.47187172739746
20
25.219925769474987
30
0
0
SPLINE
5
159
100
AcDbEntity
8
0
100
AcDbSpline
70
12
71
2
41
1
41
3.0000000000000124
41
1
72
6
73
3
74
0
42
0.000000001
43
0.0000000001
44
0.0000000001
40
0
40
0
40
0
40
5.8146328461387427
40
5.8146328461387427
40
5.8146328461387427
10
396.87242103002586
20
114.3500687387001
30
0
10
434.2393495548115
20
107.35974806395799
30
0
10
444.29728697862583
20
86.908608635535671
30
0
0
SPLINE
5
160
100
AcDbEntity
8
0
100
AcDbSpline
70
12
71
2
41
1
41
3.0000000000000036
41
1
72
6
73
3
74
0
42
0.000000001
43
0.0000000001
44
0.0000000001
40
0
40
0
40
0
40
4.2855847586209466
40
4.2855847586209466
40
4.2855847586209466
10
444.29728697862583
20
86.908608635535671
30
0
10
468.77160137657381
20
67.127998368701
30
0
10
461.39578059911008
20
53.382150556154862
30
0
0
SPLINE
5
161
100
AcDbEntity
8
0
100
AcDbSpline
70
12
71
2
41
1
41
2.9999999999999751
41
1
72
6
73
3
74
0
42
0.000000001
43
0.0000000001
44
0.0000000001
40
0
40
0
40
0
40
3.2427295841920354
40
3.2427295841920354
40
3.2427295841920354
10
461.39578059911008
20
53.382150556154862
30
0
10
473.13004092689346
20
37.28945067805207
30
0
10
461.39578059911008
20
26.225719511856411
30
0
0
SPLINE
5
162
100
AcDbEntity
8
0
100
AcDbSpline
70
12
71
2
41
1
41
2.9999999999999822
41
1
72
6
73
3
74
0
42
0.000000001
43
0.0000000001
44
0.0000000001
40
0
40
0
40
0
40
6.1509018964679179
40
6.1509018964679179
40
6.1509018964679179
10
377.44671754102973
20
102.27751998845343
30
0
10
408.42397683368847
20
86.573344054741867
30
0
10
435.24514329719307
20
82.55016908521614
30
0
0
SPLINE
5
163
100
AcDbEntity
8
0
100
AcDbSpline
70
12
71
2
41
1
41
2.9999999999999432
41
1
72
6
73
3
74
0
42
0.000000001
43
0.0000000001
44
0.0000000001
40
0
40
0
40
0
40
3.9608507801121062
40
3.9608507801121062
40
3.9608507801121062
10
435.24514329719307
20
82.55016908521614
30
0
10
440
20
60
30
0
10
453.34943066005872
20
48.688446425041548
30
0
0
SPLINE
5
164
100
AcDbEntity
8
0
100
AcDbSpline
70
12
71
2
41
1
41
2.9999999999999396
41
1
72
6
73
3
74
0
42
0.000000001
43
0.0000000001
44
0.0000000001
40
0
40
0
40
0
40
2.7894203437406744
40
2.7894203437406744
40
2.7894203437406744
10
453.34943066005872
20
48.688446425041548
30
0
10
449.99999999999994
20
30.248894481382109
30
0
10
461.39578059911008
20
26.225719511856411
30
0
0
SPLINE
5
165
100
AcDbEntity
8
0
100
AcDbSpline
70
12
71
2
41
1
41
3.0000000000000391
41
1
72
6
73
3
74
0
42
0.000000001
43
0.0000000001
44
0.0000000001
40
0
40
0
40
0
40
5.7440278850150293
40
5.7440278850150293
40
5.7440278850150293
10
259.69834620607122
20
227.15639775508413
30
0
10
228.65689532920854
20
216.22940470246985
30
0
10
207.75839874954494
20
203.08910258538043
30
0
0
SPLINE
5
166
100
AcDbEntity
8
0
100
AcDbSpline
70
12
71
2
41
1
41
2.9999999999999503
41
1
72
6
73
3
74
0
42
0.000000001
43
0.0000000001
44
0.0000000001
40
0
40
0
40
0
40
3.2906395048002279
40
3.2906395048002279
40
3.2906395048002279
10
197.6230370504951
20
193.33796276988073
30
0
10
189.24546856005364
20
181.07749293550199
30
0
10
183.74506094127509
20
163.7176495017151
30
0
0
SPLINE
5
167
100
AcDbEntity
8
0
100
AcDbSpline
70
12
71
2
41
1
41
2.9999999999994351
41
1
72
6
73
3
74
0
42
0.000000001
43
0.0000000001
44
0.0000000001
40
0
40
0
40
0
40
1.3889782239369923
40
1.3889782239369923
40
1.3889782239369923
10
185.28432423286134
20
147.47822796125101
30
0
10
187.3235306062908
20
141.42167788957306
30
0
10
190.65314521842942
20
134.68697156417295
30
0
0
SPLINE
5
168
100
AcDbEntity
8
0
100
AcDbSpline
70
12
71
2
41
1
41
3.0000000000000728
41
1
72
6
73
3
74
0
42
0.000000001
43
0.0000000001
44
0.0000000001
40
0
40
0
40
0
40
1.9530170807351497
40
1.9530170807351497
40
1.9530170807351497
10
198.4749483252713
20
124.02997909537831
30
0
10
204.95133933569412
20
117.62252291025968
30
0
10
213.15499728669374
20
111.17575779378497
30
0
0
SPLINE
5
169
100
AcDbEntity
8
0
100
AcDbSpline
70
12
71
2
41
1
41
3.0000000000000036
41
1
72
6
73
3
74
0
42
0.000000001
43
0.0000000001
44
0.0000000001
40
0
40
0
40
0
40
15.117555012157798
40
15.117555012157798
40
15.117555012157798
10
230.20379102850964
20
101.3630788752582
30
0
10
302.87544843391584
20
78.985189491742148
30
0
10
377.44671754102973
20
102.27751998845343
30
0
0
SPLINE
5
170
100
AcDbEntity
8
0
100
AcDbSpline
70
12
71
2
41
1
41
3.00000000000054
41
1
72
6
73
3
74
0
42
0.000000001
43
0.0000000001
44
0.0000000001
40
0
40
0
40
0
40
1.7203651894591578
40
1.7203651894591578
40
1.7203651894591578
10
396.87242103002586
20
114.3500687387001
30
0
10
403.92037869312566
20
120.52624129345219
30
0
10
409.22922989979355
20
126.29984349552754
30
0
0
SPLINE
5
171
100
AcDbEntity
8
0
100
AcDbSpline
70
12
71
2
41
1
41
3.0000000000000657
41
1
72
6
73
3
74
0
42
0.000000001
43
0.0000000001
44
0.0000000001
40
0
40
0
40
0
40
1.1361024003124429
40
1.1361024003124429
40
1.1361024003124429
10
421.21690779189186
20
150.78559836790151
30
0
10
420.05650032117791
20
146.0244472704947
30
0
10
417.80275406047389
20
139.96083545556323
30
0
0
SPLINE
5
172
100
AcDbEntity
8
0
100
AcDbSpline
70
12
71
2
41
1
41
3.000000000000087
41
1
72
6
73
3
74
0
42
0.000000001
43
0.0000000001
44
0.0000000001
40
0
40
0
40
0
40
3.3362317142318787
40
3.3362317142318787
40
3.3362317142318787
10
407.44770232620704
20
194.11221691567869
30
0
10
418.00000622868538
20
181.00000269711018
30
0
10
422.00583592655653
20
164.60082258811309
30
0
0
SPLINE
5
173
100
AcDbEntity
8
0
100
AcDbSpline
70
12
71
2
41
1
41
2.9999999999999041
41
1
72
6
73
3
74
0
42
0.000000001
43
0.0000000001
44
0.0000000001
40
0
40
0
40
0
40
4.7471685221360662
40
4.7471685221360662
40
4.7471685221360662
10
277.22360532942764
20
230.40507909846102
30
0
10
301.29718220158657
20
232.11630118829973
30
0
10
324.64187535770947
20
230.88832369861541
30
0
0
SPLINE
5
174
100
AcDbEntity
8
0
100
AcDbSpline
70
12
71
2
41
1
41
3.0000000000000302
41
1
72
6
73
3
74
0
42
0.000000001
43
0.0000000001
44
0.0000000001
40
0
40
0
40
0
40
6.013342799290049
40
6.013342799290049
40
6.013342799290049
10
341.84991591044934
20
228.10188041791554
30
0
10
369.55473031320241
20
220.80094435112056
30
0
10
396.62350974747631
20
204.17923421501331
30
0
0
ARC
5
175
100
AcDbEntity
8
0
100
AcDbCircle
10
259.3834022064438
20
268.84271109337072
30
0
40
24.142553191578251
100
AcDbArc
50
-59.965316169741051
51
256.42956561483851
0
ARC
5
176
100
AcDbEntity
8
0
100
AcDbCircle
10
343.5310568639444
20
267.89723182755654
30
0
40
24.600636485501134
100
AcDbArc
50
-84.493882417070324
51
234.21030469607464
0
ENDSEC
0
SECTION
2
OBJECTS
0
DICTIONARY
5
C
100
AcDbDictionary
3
ACAD_GROUP
350
D
3
ACAD_MLINESTYLE
350
17
0
DICTIONARY
5
D
100
AcDbDictionary
0
DICTIONARY
5
1A
330
C
100
AcDbDictionary
0
DICTIONARY
5
17
100
AcDbDictionary
0
ENDSEC
0
EOF
